Tab: "Marigolds" by Glen Phillips by Glen Phillips
Transcribed by michael a. mazur

Intro and verses, simile:

         C        G           Em       F
|--3--|--0-----------------|-----------------------|
|--3--|-----3--1--0--------|-----1--0-----------3--|
|--0--|--------------0-----|-----------2-----------|
|--2--|-----------------0--|--------------3--------|
|-----|--3-----------------|-----------3--------3--|
|--3--|-----------3--------|--0--------------------|


   C        Em          F
|--0-----------------|-----------------3--|
|-----3--1--0--------|-----------------3--|
|--------------0-----|-----------2-----0--|
|-----------------2--|--------3--------2--|
|--------------------|-----3--------------|
|-----------0--------|--1--------------3--|

  C          G            Em        F
i sit on the bed watching evening descend

       C          Em        F
with a fistful of marigolds

        C            G              Em       F
and the dim light is traced on your skeleton face

     C           Em       F
your hands are impossibly cold


Chorus:

   D/F#          E/G#                 Am       Am/G
|--------------|-------------------|--------------------|
|-----------3--|----------0--1--3--|--1-----------------|
|--------2-----|-------1-----------|-----2-----------2--|
|-----0--------|----2--------------|--------2-----2-----|
|--------------|-------------------|--0-----------------|
|--2-----------|/4-----------------|-----------3--------|


   D/F#                 G                   E/G#
|--------------------|--------------------|-------------------|
|-----------3--------|-----------3--------|----------0--1--3--|
|--------2-----2-----|--------0-----0-----|-------1-----------|
|-----0-----------0--|-----0-----------0--|----2--------------|
|--------------------|--------------------|-------------------|
|--2-----------------|--3-----------------|/4-----------------|


  Am        Am/G        F
|--------------------|-----------------3--|
|--1-----------------|-----------------3--|
|-----2-----------2--|-----------2-----0--|
|--------2-----2-----|--------3--------2--|
|--0-----------------|-----3--------------|
|-----------3--------|--1--------------3--|

D/F#             E/G#
close my eyes to see

         Am       Am/G      D/F#
if i can feel you in the air

                      G
i want to breathe you in me

            E/G#
it makes me dizzy

              Am      Am/G  F
but there's nobody there


Repeat Intro

Verse:

now i'm washing your feet
i pull on your clothes
and i hide all yor pills away
but my criminal mind is on women and wine
as they finally drag you away

Chorus:

i want to write you letters
all apologies and praise
i could have loved you better
but now i'll never have any chance again


Bridge:

           C     Em          Am   F
though you would forgive me

        C Em         Am   Am/G   Bb
you are nowhere near me


Verse:

so i sit on your bed watching morning come in
holding poppies and marigolds