Tab: "Gabriel" by Glen Phillips
Transcribed by michael a. mazur


Capo IV

Verse:

     Gadd9            Cadd9          Gadd9
||----------------||--------------|-----------------------------|
||------------0---||-----------3--|-----------0--------0--------|
||*--------2-----*||--------0-----|--------2--------------2-----|
||*-----0--------*||-----2--------|-----0--------------------0--|
||----------------||--3-----------|-----------------------------|
||---3------------||--------------|--3--------------3-----------|

Gadd9
    gabriel, listen

Gadd9
    i'm in need of a friend

Cadd9                             Gadd9
    gabriel, would you listen?

Gadd9
    faith alone is a prison

Gadd9
    but i can't sleep with the fallen

C (with tab below, transition into the chorus)
    gabriel, would you listen?


Chorus: The repeat pattern here is a little funny, so be careful.
        The whole four measure pattern is played twice, but the
        two measures in the middle (Am Dsus2) are only repeated
        the first time. Also, the last measure (Gadd9) is not
        repeated exactly, but continues on into the solo below.

   C                      Am
||--------------------||----------------------|
||-----------1--------||-------------1--------|
||--------0-----------||*--------2------2-----|
||-----2--------------||*-----2------------2--|
||--3--------------2--||---0------------------|
||--------------------||----------------------|

   Dsus2                   Gadd9 (first time)
|------------0---------||-------------------||
|--------3------3------||-------------0-----||
|-----2------------2--*||--------0h2-----0--||
|--0------------------*||-----0-------------||
|----------------------||-------------------||
|----------------------||--3----------------||


Am   Dsus2   Am                 Dsus2
          if you are here, then let me see

  Gadd9                C
i need you now, please don't leave me

Am      Dsus2   Gadd9
   gabriel, listen



Solo:

   Gadd9 (second time)
|----------------------------|
|-------------0--3--0--------|
|--------0h2-----------2--0--|
|-----0----------------------|
|----------------------------|
|--3-------------------------|


   G
|-----------------------------------------|
|--------0-----------1p0---------------0--|
|--------0-----0-----0----2p0-------0-----|
|-----0--------0---------------2p0--------|
|-----------------------------------------|
|--3--------3-----------------------------|


   Cmaj7                              Gadd9
|----------------------------------|--------------------|
|-----0----------------------------|--------------0-----|
|----0-----------------------0-----|--0-----0-----2--0--|
|---2----0--------0----------------|--0--------0--0--0--|
|--3--------3--3--------2h3-----2--|-----2--------------|
|----------------------------------|--3-----------------|


   Cadd9                               Gadd9
|--------0--------------------------|--------------|
|-----3--------------0--1--3--------|-----------0--|
|--0-----------------0--------0-----|--------2-----|
|--2--------2--2-----------------0--|-----0--------|
|--3--------------3-----------------|--------------|
|-----------------------------------|--3-----------|


Verse:

you will speak for the father
but who will speak for the others?
the widow, son, and the mother
i'm so far now from heaven
but i've a question to send him

C   Dsus2   Gadd9 (with tab below)
gabriel, listen

   C              Dsus2                Gadd9
|--------------------------0--------|--------------------------|
|-----------1-----------3-----3-----|-----------0--3--0--------|
|--------0-----0-----2-----------2--|--------2-----------2--0--|
|-----2-----------0-----------------|-----0--------------------|
|--3--------------------------------|--------------------------|
|-----------------------------------|--3-----------------------|



Bridge: The tab througout the bridge is given below. Note that the
        first two measures aren't repeated note for note, and that
        the four measures (C Em Dsus2) towards the end are heavily
        strummed, and i'm far too lazy to go into detail there.

    A         C  G(add9)
the church is fallen

    A           C  G(add9)
the priests are hardened

Asus4 A        Bsus4 B
these are your workers

        C        Em         Dsus2
that is all this love, this earth

              C   Cmaj7   C   Cmaj7
this good forsaken

     A                             C           G(add9)
||---------------------0--------|------------------------------||
||---------2-----------3--2-----|-----1------------------------||
||*-----------2-----2--------2--|--------0-----0--0-----2--0--*||
||*-----2--------2--------------|--------------0--0-----0--0--*||
||---0--------------------------|--3---------------------------||
||------------------------------|-----------------3-----3------||


  Asus4           A           Bsus4          B              C
|--------------------------|-----------------------------|--0--|
|--------3--------2--------|--5-----5--------4-----------|--1--|
|--------2--2-----------2--|--4-----4--------4--4--4-----|--0--|
|-----2--------2-----2-----|--4--------4-----4--4--4-----|--2--|
|--0-----------------------|-----2--------2-----------2--|--3--|
|--------------------------|-----------------------------|-----|


   Em    Dsus2         C     Cmaj7
|--0--|--0--|--0--||---------------------------||
|--0--|--3--|--3--||------1--0-----------------||
|--0--|--2--|--2--||*----0------0-------------*||
|--2--|--0--|--0--||*---2------------2-----2--*||
|--2--|-----|-----||---3----------------3------||
|--0--|-----|-----||---------------------------||



Verse:

gabriel, listen
i'm in need of a friend
gabriel, would you listen?
faith alone is a prison
so i am one of the fallen


C       Dsus2             Emadd9 (with tab below)
   gabriel wouldn't listen

   Emadd9
|--------------------|
|-----------0--------|
|--------------0-----|
|--------4--------4--|
|-----2--------------|
|--0-----------------|



C       Dsus2             G
   gabriel wouldn't listen