Tab: "Down Below" by Glen Phillips
Transcribed by michael a. mazur

Capo IV

this song essentially consists of straight chords, but there's
lots of variation thrown onto practically every chord. i've used
the convention that A(sus2) represents an A chord that alternates
back and forth to an Asus2... you'll have to listen to hear how
each chord handles that sort of thing...


Intro: A(sus2)


     A(sus2)
i've done it again

         E
made spectacular claims

    G(add9)               D          E(sus4)
and lied in the name of a good love

  A(sus2)
i think i recall

        C#(/G#)
someone brought me here

        D(/A)
but the memory's not clear

     A(sus4)
just what it was

  E(sus4)        D(/A) (with the tab below)
a good love... a good love

   D(/A)                                              Bm
|-----2--2--2-----2--2--2-----2--2--2-----2--2-----|-----|
|-----3--3--3-----3--3--3-----3--3--3-----3--3-----|-----|
|-----2--2--2-----2--2--2-----2--2--2-----2--2-----|-----|
|--0-----------------------0-----------------------|-----|
|--------------0-----------------------0--------1--|--2--|
|--------------------------------------------------|-----|



Bm                             E
   you define yourself by your company

       Bm                  Bm/A (x0443x)
by the promises you make

        G
and the ones that you keep

          F#m                   Esus4
sleep the sleep of the blessed

          D(sus2)
dream the dreams of the whole

   A(sus4)               E
forget when you wake how far you've fallen

D   D/C#   D/B      D  D/A  D/B  E   (with the tab below)
down     below

   D        D/C#     D/B
|-----------------------------|
|-----3--3-----3--3-----3--3--|
|-----2--2-----2--2-----2--2--|
|--0--------------------------|
|-----------4--------2--------|
|-----------------------------|


   D        D/A     D/B E
|--------------------------------------|
|-----3--3-----3--3-----------------0--|
|-----2--2-----2--2-----------------1--|
|--0--------------------------2-----2--|
|-----------0--------2-----------2-----|
|-----------------------0--0-----------|

        A(sus2)
you can blow me a kiss

       E
if you think it brings luck

         G(add9)
it's the faith that makes it work

   D                  E
so what the fuck? why not?


          F#m                   Esus4
sleep the sleep of the blessed

          D(sus2)
dream the dreams of the whole

   A(sus4)               E
forget when you wake how far you've fallen

D   D/C#   D/B  (similar to the end of the first chorus)
down     below

D   D/C#   D/B
down     below

       E(sus4)
from a good love

          D                    A
you had a good good love