Tab: "Darkest Hour (Demo Version)" by Glen Phillips
Transcribed by michael a. mazur

Intro:

   E
|--0--0--0--0--0--0--0---0-0--|--0--0--0-----0-----0--------|
|--5--5--5--5--5--5--5---5-5--|--5--5--5-----5-----5--------|
|--4--4-----4--4-----4---4-4--|--4-----4-----4-----4--------| Guitar 1
|--2--2--------2-----2---2-2--|--2-----2-----2-----2--------| acoustic
|--2--2--------2-----2---2-2--|--2-----2-----2-----2--------|
|--0--0--------0-----0---0-0--|--0-----0-----0-----0--------|
|                             |                             |
|-----0-----------------------|--0-----0-----------------0--|
|-----0--------0--0--0---0----|--0-----0-----0--0--0--0--0--|
|-----9--------8--9------9----|--9-----9-----8--9-----9--9--| Guitar 2
|-----9--------9--9-----------|--------9-----9--9-----------|
|--7--------------------------|-----7-----------------------|
|--0--------------------------|-----0-----------------------|


   Emaj7/A
|--0--0--0--0--0-----0-----0-0--|--0-----0-----0-----0--------|
|--4--4--4--4--4-----4-----4-4--|--4-----4-----4-----4--------|
|--4--4-----4--4-----4-----4-4--|--4-----4-----4-----4--------| Guitar 1
|--2--2--------2-----2-----2-2--|--2-----2-----2-----2--------|
|--0--0--------0-----0-----0-0--|--0-----0-----0-----0--------|
|-------------------------------|-----------------------------|
|                               |                             |
|-----0--------------------0----|-----0--------------------0--|
|-----0--------0--0--0--0--0----|-----0--------0--0--0--0--0--|
|-----9--------8--9-----9--9----|-----9--------8--9-----9--9--| Guitar 2
|--9-----------9--9-------------|--9-----------9--9-----------|
|--0----------------------------|--0--------------------------|
|-------------------------------|-----------------------------|
|                               |                             |
|--0----------------------------|--0--------------------------|
|--0----------------------------|--0--------------------------|
|--9----------------------------|--8--------------------------| Guitar 3
|-------------------------------|-----------------------------|
|-------------------------------|-----------------------------|
|-------------------------------|-----------------------------|
|                               |                             |
|-------------------------------|-----------------------------|
|-------------------------------|-----------------------------|
|-------------------------------|-----------------9-----------| Guitars 4 and 5
|-------------------------------|-----------------------------|
|-------------------------------|-----------------------------|
|-------------------------------|-----------------------------|


   E
|--0--0--0--0--0--0--0---0-0--|--0--0--0-----0-----0--------|
|--5--5--5--5--5--5--5---5-5--|--5--5--5-----5-----5--------|
|--4--4-----4--4-----4---4-4--|--4-----4-----4-----4--------|
|--2--2--------2-----2---2-2--|--2-----2-----2-----2--------|
|--2--2--------2-----2---2-2--|--2-----2-----2-----2--------|
|--0--0--------0-----0---0-0--|--0-----0-----0-----0--------|
|                             |                             |
|-----0-----------------------|--0-----0-----------------0--|
|-----0--------0--0--0---0----|--0-----0-----0--0--0--0--0--|
|-----9--------8--9------9----|--9-----9-----8--9-----9--9--|
|-----9--------9--9-----------|--------9-----9--9-----------|
|--7--------------------------|-----7-----------------------|
|--0--------------------------|-----0-----------------------|
|                             |                             |
|--0--------------------------|--0--------------------------|
|--0--------------------------|--0--------------------------|
|--9--------------------------|--9--------------------------|
|-----------------------------|-----------------------------|
|-----------------------------|-----------------------------|
|-----------------------------|-----------------------------|
|                             |                             |
|-----------------------------|-----------------------------|
|--------------------------9--|-----------------------------|
|----------------8--9--11-----|--------------8--------------|
|----------------^^^^^^^^^^^--|-----------------------------|
|---------------- Guitar 5 ---|-----------------------------|
|-----------------------------|-----------------------------|



   Emaj7/A
|--0--0--0--0--0-----0-----0-0--|--0-----0-----0-----0--|-----|
|--4--4--4--4--4-----4-----4-4--|--4-----4-----4-----4--|-----|
|--4--4-----4--4-----4-----4-4--|--4-----4-----4-----4--|-----|
|--2--2--------2-----2-----2-2--|--2-----2-----2-----2--|-----|
|--0--0--------0-----0-----0-0--|--0-----0-----0-----0--|-----|
|-------------------------------|-----------------------|-----|
|                               |                       |     |
|-----0--------------------0----|--0--0-----0--0--0--0--|--0--|
|-----0--------0--0--0--0--0----|--0--0--0--0--0--0--0--|--0--|
|-----9--------8--9-----9--9----|--6--6--6--6--8--8--8--|--9--|
|--9-----------9--9-------------|--7--7--------7--------|-----|
|--0----------------------------|--0--0--------0--------|-----|
|-------------------------------|-----------------------|-----|
|                               |                       |
|--0----------------------------|--0--------------------|
|--0----------------------------|--0--------------------|
|--9----------------------------|--8--------------------| Guitar 3
|-------------------------------|-----------------------| continues
|-------------------------------|-----------------------| in verse
|-------------------------------|-----------------------|
|                               |                       |
|-------------------------------|-----------------------|-----|
|-------------------------------|-----------------------|-----|
|--9---------------8--9--11--9--|--------------8--------|--9--|
|------------------^^^^^^^^^^^--|-----------------------|-----|
|------------------ Guitar 5  --|-----------------------|-----|
|-------------------------------|-----------------------|-----|



Verse:

   E5    Badd4    C#m7  Bsus4
|--0--0--0--0--|--0--0--0--0--|
|--0--0--0--0--|--0--0--0--0--|
|--9--9--8--8--|--6--6--4--4--| Guitar 3
|--------------|--------------|
|--7--7--6--6--|--4--4--2--2--|
|--------------|--------------|


E5   Badd4   C#m7  Bsus4
if i lose my faith

Asus2 (w/ Fill 2)
just remind me

E      B
just remind me

E       Badd4    C#m7 Bsus4
when my shadow's longer

Asus2 (w/ Fill 2 and Fill 3)
stay beside me

E          B
until it's brighter

   Asus2 E  B  
|-----|--------|
|--5--|--5--4--|
|--6--|--4--4--| Fill 2
|--7--|--6--4--| Guitar 2
|-----|--------|
|-----|--------|

   Asus2                      E     B
|--0--0--------------------|-----0-----0--|
|--0-----0-----------0-----|-----0-----0--|
|--9-----------------------|-----9-----8--| Fill 3
|--7--------7-----7-----7--|-----9-----9--| Guitar 5
|--0-----------7-----------|-----7--------|
|--------------------------|--0-----7-----|


Prechorus: Guitars 5 and 6 play tab below

F#m      E
how easy i forget

F#m       B
how beautiful

                A      E
to see it once again

|-----|-----|-----|-----0--|--0--0--0-----|---------------------|
|-----|-----|-----|-----0--|--0--0--0-----|---------------------|
|-----|-----|-----|--4-----|--2--1--2-----|--------1h2p1--------| Guitar 5
|-----|-----|-----|--4-----|--2--2--2-----|---------------4--2--|
|-----|-----|-----|--2-----|--0--------0--|---------------------|
|-----|-----|-----|--------|--------------|--0------------------|
|     |     |     |        |              |                     |
|--2--|--0--|--2--|--2-----|--0-----0-----|--0-----2p--0--------|
|--2--|--0--|--2--|--4-----|--0-----0-----|--0------------0-----|
|--2--|--1--|--2--|--4-----|--2-----2-----|--1---------------1--| Guitar 6
|--4--|--2--|--4--|--4-----|--2-----2-----|--2------------------| w/ trem
|--4--|--2--|--4--|--2-----|--0-----0-----|--2------------------|
|--2--|--0--|--2--|--------|--------------|--0------------------|



Chorus: Guitars 1 and 2 play tab below. Guitar 1 strums the chords indicated

in my darkest hour i will be free

   G#                         A           B             Guitar 1
|--------------------------|--------------------------|
|--------------------------|--------------------------|
|--------------------------|--------------8--8--8--8--| Guitar 2
|--6--6--6--6--6--6--6--6--|--7--7--7--7--9--9--9--9--|
|--6--6--6--6--6--6--6--6--|--7--7--7--7--9--9--9--9--|
|--4--4--4--4--4--4--4--4--|--5--5--5--5--7--7--7--7--|
|                          |                          |
|--0-----0-----0-----0-----|--0-----0-----0-----0-----|
|-/5-----5-----4-----4-----|--2-----2-----4-----4---/-|
|--------------------------|--------------------------| Guitar 3
|--------------------------|--------------------------|
|--------------------------|--------------------------|
|--------------------------|--------------------------|

   E5
|-----------------------|--------------------|
|-----------------------|--------------------|
|-----9-----9--9--------|-----9-----9--9--9--| Guitar 2
|-----9-----8--9--------|-----9-----8--9--9--|
|-----7-----7--7--------|--7--7-----7--7--7--|
|--0--------------------|--0--0--------------|
|                       |                    |
|-----------------------|--------------------|
|-/9--------------7----/|--9-----------------|
|-----------------------|--------------------| Guitar 3
|-----------------------|--------------------|
|-----------------------|--------------------|
|-----------------------|--------------------|



Verse:

(w/ Fill 4)
when i close my eyes

|--0--0--|--0---0--|
|--0--0--|--0---0--|
|--9--8--|--11--9--| Fill 4
|--9--9--|--9---9--| Guitar 1
|--7--7--|--7---7--|
|--0--0--|--0---0--|


(w/ Fills 5 and 6)
i hope to find you

i hope to find you


|--0-----------0--|--0--0-----0--0--|-----|
|--0--0--------0--|--0--0--0--0--0--|-----|
|--9-----------9--|--9--9--9--8--8--|-----| Fill 5
|--7--------------|--9--------9-----|-----| Guitar 5
|--0--------------|--7--------9-----|-----|
|-----------------|--0--------7-----|-----|
|                 |                 |     |
|--0--------------|--0--------2-----|--2--|
|--0--------------|--0--------4-----|--0--|
|--2--------------|--1--------4-----|--1--| Fill 6
|--2--------------|--2--------4-----|--2--| Guitar 6
|--0--------------|--2--------2-----|--2--| w/ trem
|-----------------|--0--------------|--0--|



(w/ Fill 7)
when i leave my body

Asus2 (w/ Fill 5 and Guitar 1 strumming chords)
i want to be ready

E            B
willing like you were


|-----------|-----------------|
|--7--------|-----------------|
|-----8~~~--|-----------9~~~--| Fill 7
|-----------|-----------------| Guitar 4
|-----------|-----------------|
|-----------|-----------------|


Prechorus: Guitars 5 and 6 play tab below


cause i sat beside you then
and i felt the warmth
as it left your hands


   F#m         E           F#m         B
|--0--------|--0--------|--0--------|--0--------------|
|-----2-----|-----0-----|-----2-----|-----4-----------|
|-----------|--------1--|-----------|--------4--------| Guitar 5
|--------4--|-----------|--------4--|-----------------|
|-----------|-----------|-----------|-----------------|
|-----------|-----------|-----------|-----------------|
|           |           |           |                 |
|-----------|-----------|--2--------|--2--------------|
|-----------|-----------|--2--------|--4--------2--4--|
|-----------|-----------|--2--------|--4--------------| Guitar 6
|-----------|-----------|--4--------|-----------------| w/ trem
|-----------|-----------|-----------|-----------------|
|-----------|-----------|-----------|-----------------|


   Asus2                E
|--0--------0--0-----|---------------------------|
|--0--------0--0-----|---------------------------|
|--2--------1--2-----|--------------1h2p1--------| Guitar 5
|--2--------2--2-----|---------------------4--2--|
|--0-----------------|---------------------------|
|--------------------|--0------------------------|
|                    |                           |
|--0--------0--------|--0-----------4---2--0-----|
|--0--------0--------|--0--------0---------------|
|--2--------2--------|--1------------------------| Guitar 6
|--2--------2--------|--2------------------------|
|--0--------0--------|--2------------------------|
|--------------------|---------------------------|



Chorus: As before, except that Guitar 3 plays the two measures below

G#            A      B       Asus2  E
in my darkest hour i will be        free

   G#                        A           B
|--0--0--0--0--0--0--0--0--|-0--0--0--0--0--0--0--0--|
|--5--5--5--5--4--4--4--4--|/9--9--9--9--7--7--7--7--|
|--------------------------|-------------------------| Guitar 3
|--------------------------|-------------------------|
|--------------------------|-------------------------|
|--------------------------|-------------------------|


   Asus2                      E                            Guitar 1
|--0-----------------------|--0--------------------------|
|--0-----------------------|--0--------------------------|
|--2-----------------------|--1--------------------------| Guitar 2
|--2-----------------------|--2--------------------------|
|--0-----------------------|--2--------------------------|
|--------------------------|--0--------------------------|
|                          |                             |
|--0-----------------------|--------------------------0--|
|--5-----------------------|--------------------------5--|
|--------------------------|-----------------------------| Guitar 3
|--------------------------|-----------------------------|
|--------------------------|-----------------------------|
|--------------------------|-----------------------------|
|                          |                             |
|--------------------------|-----------------------------|
|--------------------------|-----------------------------|
|--1--2--------1-----2-----|-----------------1h2p1-------|Guitar 5
|--------------------------|----------------------/4--2--|
|--------------------------|-----------------------------|
|--------------------------|--0--------------------------|


G#            A      Am
in my darkest hour i will be

   G#                         A           Am            Guitar 1
|--------------------------|--------------------------|
|--------------------------|--------------------------|
|--6--6--6--6--6--6--6--6--|--6--6--6--6--5--5--5--5--| Guitar 2
|--5--5--5--5--5--5--5--5--|--7--7--7--7--7--7--7--7--|
|--5--5--5--5--5--5--5--5--|--7--7--7--7--7--7--7--7--|
|--4--4--4--4--4--4--4--4--|--5--5--5--5--5--5--5--5--|
|                          |                          |
|--0--0--0--0--0--0--0--0--|--0--0--0--0--0--0--0--0--|
|--5--5--5--5--4--4--4--4--|--2--2--2--2--1--1--1--1--|
|--------------------------|--------------------------| Guitar 3
|--------------------------|--------------------------|
|--------------------------|--------------------------|
|--------------------------|--------------------------|




Bridge: Guitar 1 strums each chord once on the downbeats. Guitars 3 and 6
        play the tab below.

F#m
'cause i've been waiting

G#
so long

C#m     B       F#    F#7
waiting was the end

                B
let this sleep awaken


again



   F#m   G#    C#m           B           F#                F#7            B
|-----|-----|-------------|-----------|-----------------|--------------|-----|
|--2--|--4--|--5----------|--2--------|--2--------------|--------------|-----|
|--2--|--5--|--6----------|--4--------|--3--------------|--------------|--4--| Guitar 2
|--4--|--6--|--6----------|--4--------|-----------------|--------------|--4--| w/ trem
|--4--|--6--|--4----------|-----------|-----------------|--------------|--2--|
|--2--|--4--|-------------|-----------|-----------------|--------------|-----|
|     |     |             |           |                 |              |     |
|-----|-----|-------------|-----------|--------------0--|--------------|-----|
|-----|-----|--5--5p4--2--|-----------|-----------2-----|-----------0--|-----|
|-----|-----|-------------|-----4-----|--------3--------|--------3-----|-----| Guitar 3
|-----|-----|-------------|--4--------|-----4-----------|-----4--------|-----|
|-----|-----|-------------|-----------|-----------------|--------------|-----|
|-----|-----|-------------|-----------|-----------------|--2-----------|-----|




   Asus2                E                          Guitar 1 (strumming again)
|--0--------0--------|--0------------------------|
|--0--------0--------|--0------------------------|
|--2--------2--------|--1------------------------| Guitar 2
|--2--------2--------|--2------------------------|
|--0--------0--------|--2------------------------|
|--------------------|---------------------------|
|                    |                           |
|--0--------0--0-----|---------------------------|
|--0--------0--0-----|---------------------------|
|--2--------1--2-----|--------------1h2p1--------| Guitar 5
|--2--------2--2-----|---------------------4--2--|
|--0-----------------|--2------------------------|
|--------------------|--0------------------------|


Chorus: As before, but again, Guitar 3 plays a slightly different part.
        During the Asus2-E part, Guitar 5 plays something different as
        well...

in my darkest hour i will be free

   G#                         A           B
|--0--0--0--0--0--0--0--0--|--0--0--0--0--0--0--0--0--|
|--5--5--5--5--4--4--4--4--|--2--2--2--2--0--0--0--0--|
|--------------------------|--------------------------| Guitar 3
|--------------------------|--------------------------|
|--------------------------|--------------------------|
|--------------------------|--------------------------|


   Asus2                E
|--------------------|-----------------|
|--2--0-----------0--|-----------------|
|--------2--1--2-----|-----1h2p1-------| Guitar 5
|--------------------|----------/4--2--|
|--------------------|-----------------|
|--------------------|-----------------|


in my darkest hour i will be free

  G#                        C#m         B
|-0--0--0--0--0--0--0--0--|-0--0--0--0--0--0--0--0--|
|/5--5--5--5--4--4--4--4--|/9--9--9--9--7--7--7--7--|
|-------------------------|-------------------------| Guitar 3
|-------------------------|-------------------------|
|-------------------------|-------------------------|
|-------------------------|-------------------------|

   Asus2                E
|--0--------0--0-----|-----------------------------|
|--0--------0--0-----|-----------------------------|
|--2--------1--2-----|--------------1h2~~~--1--2/--| Guitar 5
|--2--------2--2-----|-----------------------------|
|--0-----------------|--2--------------------------|
|--------------------|--0--------------------------|



in my darkest hour i will be

  G#                        A           B
|-0--0--0--0--0--0--0--0--|-0--0--0--0--0--0--0--0--|
|/5--5--5--5--4--4--4--4--|/9--9--9--9--7--7--7--7--|
|-------------------------|-------------------------| Guitar 3
|-------------------------|-------------------------|
|-------------------------|-------------------------|
|-------------------------|-------------------------|




Ending: Guitar 2 plays the tab below (note the repeat structure). Guitars
        1 and 6 enter, Guitar 1 strumming and Guitar 6 holding the chords
        indicated. Halfway through the ending, Guitar 4 enters with the
        lead part below.

     A5                         B5
||---------------------------|-----------------------------|
||---------------------------|-----------------------------|
||*-----------------------2--|--------------------------4--| Guitar 2
||*--2--2--2--2--2--2--2--2--|--4--4--4--4--4--4--4--4--4--|
||---0--0--0--0--0--0--0--0--|--2--2--2--2--2--2--2--2--2--|
||---------------------------|-----------------------------|


   A/C#                           B/D#
|-----------------------------||------------------------------||
|-----------------------------||------------------------------||
|--------------------------2--||--------------------------6--*||
|--2--2--2--2--2--2--2--2--2--||--6--6--6--6--6--6--6--6--6--*||
|--4--4--4--4--4--4--4--4--4--||--4--4--4--4--4--4--4--4--4---||
|-----------------------------||------------------------------||
                               \       Endings 1 and 3        /


   E                     E
|--------------0--0---||-------|
|--------------0--0---||-------|
|--------------2--1--*||-------|
|--------------2--2--*||-------|
|--2--2--2--2---------||-------|
|--0--0--0--0---------||--0----|
\        Ending 2     /\ End 4 /



   B                    A/C#  B/D#         A
|--------------------|-----|------------|-----|
|---------------0----|-----|------------|-----|
|----------4h6-------|-----|------------|-----| Guitar 4
|-----4/6----------4/|--6--|------------|-----|
|--------------------|-----|--6h7/9--6--|--7--|
|--------------------|-----|------------|-----|


   B                    A/C#           E
|--------------------|----------------|--|
|---------------0----|----------------|--|
|----------4h6-------|----------------|--|
|-----4/6----------4/|--6b(8)r6--4\2--|--|
|--------------------|----------------|--|
|--------------------|----------------|--|